ISO-10303-21;
HEADER;
/* Generated by software containing ST-Developer
 * from STEP Tools, Inc. (www.steptools.com) 
 */

FILE_DESCRIPTION(
/* description */ (''),
/* implementation_level */ '2;1');

FILE_NAME(
/* name */ 'M:\\Modelat 3D dels productes\\0168_COMO\\0168_026_00.stp',

/* time_stamp */ '2023-01-02T11:04:37+01:00',
/* author */ ('jferrer'),
/* organization */ (''),
/* preprocessor_version */ 'ST-DEVELOPER v18.1',
/* originating_system */ 'Autodesk Inventor 2022',
/* authorisation */ '');

FILE_SCHEMA (('CONFIG_CONTROL_DESIGN'));
ENDSEC;

DATA;
#10=MECHANICAL_DESIGN_GEOMETRIC_PRESENTATION_REPRESENTATION('',(#13),#252);
#11=SHAPE_REPRESENTATION_RELATIONSHIP('SRR','None',#259,#12);
#12=ADVANCED_BREP_SHAPE_REPRESENTATION('',(#14),#251);
#13=STYLED_ITEM('',(#268),#14);
#14=MANIFOLD_SOLID_BREP('Solid1',#130);
#15=FACE_BOUND('',#51,.T.);
#16=FACE_BOUND('',#54,.T.);
#17=CONICAL_SURFACE('',#158,0.8105,1.02974425867665);
#18=CONICAL_SURFACE('',#160,1.8105,0.785398163397448);
#19=LINE('',#227,#24);
#20=LINE('',#232,#25);
#21=LINE('',#237,#26);
#22=LINE('',#240,#27);
#23=LINE('',#247,#28);
#24=VECTOR('',#187,13.);
#25=VECTOR('',#192,0.8105);
#26=VECTOR('',#197,1.8105);
#27=VECTOR('',#202,1.621);
#28=VECTOR('',#211,6.00000000000001);
#29=CYLINDRICAL_SURFACE('',#156,13.);
#30=CYLINDRICAL_SURFACE('',#163,1.621);
#31=CYLINDRICAL_SURFACE('',#166,6.00000000000001);
#32=PLANE('',#155);
#33=PLANE('',#164);
#34=PLANE('',#168);
#35=FACE_OUTER_BOUND('',#44,.T.);
#36=FACE_OUTER_BOUND('',#45,.T.);
#37=FACE_OUTER_BOUND('',#46,.T.);
#38=FACE_OUTER_BOUND('',#47,.T.);
#39=FACE_OUTER_BOUND('',#48,.T.);
#40=FACE_OUTER_BOUND('',#49,.T.);
#41=FACE_OUTER_BOUND('',#50,.T.);
#42=FACE_OUTER_BOUND('',#52,.T.);
#43=FACE_OUTER_BOUND('',#53,.T.);
#44=EDGE_LOOP('',(#90,#91,#92,#93,#94));
#45=EDGE_LOOP('',(#95));
#46=EDGE_LOOP('',(#96,#97,#98,#99,#100));
#47=EDGE_LOOP('',(#101,#102,#103));
#48=EDGE_LOOP('',(#104,#105,#106,#107));
#49=EDGE_LOOP('',(#108,#109,#110,#111));
#50=EDGE_LOOP('',(#112));
#51=EDGE_LOOP('',(#113));
#52=EDGE_LOOP('',(#114,#115,#116,#117));
#53=EDGE_LOOP('',(#118));
#54=EDGE_LOOP('',(#119));
#55=CIRCLE('',#151,13.);
#56=CIRCLE('',#152,0.5);
#57=CIRCLE('',#153,12.5);
#58=CIRCLE('',#154,13.);
#59=CIRCLE('',#157,13.);
#60=CIRCLE('',#159,1.621);
#61=CIRCLE('',#161,2.);
#62=CIRCLE('',#162,1.621);
#63=CIRCLE('',#165,6.00000000000002);
#64=CIRCLE('',#167,6.);
#65=VERTEX_POINT('',#216);
#66=VERTEX_POINT('',#217);
#67=VERTEX_POINT('',#219);
#68=VERTEX_POINT('',#225);
#69=VERTEX_POINT('',#229);
#70=VERTEX_POINT('',#231);
#71=VERTEX_POINT('',#234);
#72=VERTEX_POINT('',#236);
#73=VERTEX_POINT('',#242);
#74=VERTEX_POINT('',#245);
#75=EDGE_CURVE('',#65,#66,#55,.T.);
#76=EDGE_CURVE('',#66,#67,#56,.T.);
#77=EDGE_CURVE('',#67,#67,#57,.T.);
#78=EDGE_CURVE('',#66,#65,#58,.T.);
#79=EDGE_CURVE('',#68,#68,#59,.T.);
#80=EDGE_CURVE('',#68,#65,#19,.T.);
#81=EDGE_CURVE('',#69,#69,#60,.T.);
#82=EDGE_CURVE('',#69,#70,#20,.T.);
#83=EDGE_CURVE('',#71,#71,#61,.T.);
#84=EDGE_CURVE('',#71,#72,#21,.T.);
#85=EDGE_CURVE('',#72,#72,#62,.T.);
#86=EDGE_CURVE('',#72,#69,#22,.T.);
#87=EDGE_CURVE('',#73,#73,#63,.T.);
#88=EDGE_CURVE('',#74,#74,#64,.T.);
#89=EDGE_CURVE('',#74,#73,#23,.T.);
#90=ORIENTED_EDGE('',*,*,#75,.T.);
#91=ORIENTED_EDGE('',*,*,#76,.T.);
#92=ORIENTED_EDGE('',*,*,#77,.T.);
#93=ORIENTED_EDGE('',*,*,#76,.F.);
#94=ORIENTED_EDGE('',*,*,#78,.T.);
#95=ORIENTED_EDGE('',*,*,#77,.F.);
#96=ORIENTED_EDGE('',*,*,#79,.F.);
#97=ORIENTED_EDGE('',*,*,#80,.T.);
#98=ORIENTED_EDGE('',*,*,#78,.F.);
#99=ORIENTED_EDGE('',*,*,#75,.F.);
#100=ORIENTED_EDGE('',*,*,#80,.F.);
#101=ORIENTED_EDGE('',*,*,#81,.T.);
#102=ORIENTED_EDGE('',*,*,#82,.T.);
#103=ORIENTED_EDGE('',*,*,#82,.F.);
#104=ORIENTED_EDGE('',*,*,#83,.F.);
#105=ORIENTED_EDGE('',*,*,#84,.T.);
#106=ORIENTED_EDGE('',*,*,#85,.F.);
#107=ORIENTED_EDGE('',*,*,#84,.F.);
#108=ORIENTED_EDGE('',*,*,#85,.T.);
#109=ORIENTED_EDGE('',*,*,#86,.T.);
#110=ORIENTED_EDGE('',*,*,#81,.F.);
#111=ORIENTED_EDGE('',*,*,#86,.F.);
#112=ORIENTED_EDGE('',*,*,#79,.T.);
#113=ORIENTED_EDGE('',*,*,#87,.F.);
#114=ORIENTED_EDGE('',*,*,#88,.F.);
#115=ORIENTED_EDGE('',*,*,#89,.T.);
#116=ORIENTED_EDGE('',*,*,#87,.T.);
#117=ORIENTED_EDGE('',*,*,#89,.F.);
#118=ORIENTED_EDGE('',*,*,#88,.T.);
#119=ORIENTED_EDGE('',*,*,#83,.T.);
#120=TOROIDAL_SURFACE('',#150,12.5,0.5);
#121=ADVANCED_FACE('',(#35),#120,.T.);
#122=ADVANCED_FACE('',(#36),#32,.T.);
#123=ADVANCED_FACE('',(#37),#29,.T.);
#124=ADVANCED_FACE('',(#38),#17,.F.);
#125=ADVANCED_FACE('',(#39),#18,.F.);
#126=ADVANCED_FACE('',(#40),#30,.F.);
#127=ADVANCED_FACE('',(#41,#15),#33,.T.);
#128=ADVANCED_FACE('',(#42),#31,.T.);
#129=ADVANCED_FACE('',(#43,#16),#34,.T.);
#130=CLOSED_SHELL('',(#121,#122,#123,#124,#125,#126,#127,#128,#129));
#131=DERIVED_UNIT_ELEMENT(#133,1.);
#132=DERIVED_UNIT_ELEMENT(#254,-3.);
#133=(
MASS_UNIT()
NAMED_UNIT(*)
SI_UNIT($,.GRAM.)
);
#134=DERIVED_UNIT((#131,#132));
#135=MEASURE_REPRESENTATION_ITEM('density measure',
POSITIVE_RATIO_MEASURE(1.),#134);
#136=PROPERTY_DEFINITION_REPRESENTATION(#141,#138);
#137=PROPERTY_DEFINITION_REPRESENTATION(#142,#139);
#138=REPRESENTATION('material name',(#140),#251);
#139=REPRESENTATION('density',(#135),#251);
#140=DESCRIPTIVE_REPRESENTATION_ITEM('Gen\X\E9rico','Gen\X\E9rico');
#141=PROPERTY_DEFINITION('material property','material name',#261);
#142=PROPERTY_DEFINITION('material property','density of part',#261);
#143=DATE_TIME_ROLE('creation_date');
#144=CC_DESIGN_DATE_AND_TIME_ASSIGNMENT(#145,#143,(#261));
#145=DATE_AND_TIME(#146,#147);
#146=CALENDAR_DATE(2015,10,4);
#147=LOCAL_TIME(0,0,0.,#148);
#148=COORDINATED_UNIVERSAL_TIME_OFFSET(0,0,.BEHIND.);
#149=AXIS2_PLACEMENT_3D('placement',#214,#169,#170);
#150=AXIS2_PLACEMENT_3D('',#215,#171,#172);
#151=AXIS2_PLACEMENT_3D('',#218,#173,#174);
#152=AXIS2_PLACEMENT_3D('',#220,#175,#176);
#153=AXIS2_PLACEMENT_3D('',#221,#177,#178);
#154=AXIS2_PLACEMENT_3D('',#222,#179,#180);
#155=AXIS2_PLACEMENT_3D('',#223,#181,#182);
#156=AXIS2_PLACEMENT_3D('',#224,#183,#184);
#157=AXIS2_PLACEMENT_3D('',#226,#185,#186);
#158=AXIS2_PLACEMENT_3D('',#228,#188,#189);
#159=AXIS2_PLACEMENT_3D('',#230,#190,#191);
#160=AXIS2_PLACEMENT_3D('',#233,#193,#194);
#161=AXIS2_PLACEMENT_3D('',#235,#195,#196);
#162=AXIS2_PLACEMENT_3D('',#238,#198,#199);
#163=AXIS2_PLACEMENT_3D('',#239,#200,#201);
#164=AXIS2_PLACEMENT_3D('',#241,#203,#204);
#165=AXIS2_PLACEMENT_3D('',#243,#205,#206);
#166=AXIS2_PLACEMENT_3D('',#244,#207,#208);
#167=AXIS2_PLACEMENT_3D('',#246,#209,#210);
#168=AXIS2_PLACEMENT_3D('',#248,#212,#213);
#169=DIRECTION('axis',(0.,0.,1.));
#170=DIRECTION('refdir',(1.,0.,0.));
#171=DIRECTION('center_axis',(-1.,-9.97953280561937E-16,0.));
#172=DIRECTION('ref_axis',(0.,0.,1.));
#173=DIRECTION('center_axis',(1.,9.97953280561937E-16,0.));
#174=DIRECTION('ref_axis',(-9.98133200023577E-16,1.,1.22464679914735E-16));
#175=DIRECTION('center_axis',(9.97953280561937E-16,-1.,1.70803542250024E-16));
#176=DIRECTION('ref_axis',(0.,-1.70803542250024E-16,-1.));
#177=DIRECTION('center_axis',(-1.,-9.97953280561937E-16,0.));
#178=DIRECTION('ref_axis',(-9.97953280561937E-16,1.,1.22464679914735E-16));
#179=DIRECTION('center_axis',(1.,9.97953280561937E-16,0.));
#180=DIRECTION('ref_axis',(-9.98133200023577E-16,1.,1.22464679914735E-16));
#181=DIRECTION('center_axis',(1.,9.97953280561937E-16,0.));
#182=DIRECTION('ref_axis',(0.,0.,-1.));
#183=DIRECTION('center_axis',(-1.,-9.97953280561937E-16,0.));
#184=DIRECTION('ref_axis',(0.,-1.,0.));
#185=DIRECTION('center_axis',(-1.,-9.97953280561937E-16,0.));
#186=DIRECTION('ref_axis',(0.,-1.,0.));
#187=DIRECTION('',(1.,9.97953280561937E-16,0.));
#188=DIRECTION('center_axis',(-1.,-9.97953280561937E-16,0.));
#189=DIRECTION('ref_axis',(9.97953280561937E-16,-1.,0.));
#190=DIRECTION('center_axis',(-1.,-9.97953280561937E-16,0.));
#191=DIRECTION('ref_axis',(9.97953280561937E-16,-1.,0.));
#192=DIRECTION('',(0.515038074910055,-0.857167300702112,1.04972719113862E-16));
#193=DIRECTION('center_axis',(-1.,-9.97953280561937E-16,0.));
#194=DIRECTION('ref_axis',(9.97953280561937E-16,-1.,0.));
#195=DIRECTION('center_axis',(1.,9.97953280561937E-16,0.));
#196=DIRECTION('ref_axis',(9.97953280561938E-16,-1.,0.));
#197=DIRECTION('',(0.707106781186548,-0.707106781186547,8.65956056235493E-17));
#198=DIRECTION('center_axis',(-1.,-9.97953280561937E-16,0.));
#199=DIRECTION('ref_axis',(9.97953280561937E-16,-1.,0.));
#200=DIRECTION('center_axis',(-1.,-9.97953280561937E-16,0.));
#201=DIRECTION('ref_axis',(9.97953280561937E-16,-1.,0.));
#202=DIRECTION('',(1.,9.97953280561937E-16,0.));
#203=DIRECTION('center_axis',(-1.,-9.97953280561937E-16,0.));
#204=DIRECTION('ref_axis',(0.,0.,1.));
#205=DIRECTION('center_axis',(-1.,-9.97953280561937E-16,0.));
#206=DIRECTION('ref_axis',(0.,-1.,0.));
#207=DIRECTION('center_axis',(-1.,-9.97953280561937E-16,0.));
#208=DIRECTION('ref_axis',(0.,-1.,0.));
#209=DIRECTION('center_axis',(-1.,-9.97953280561937E-16,0.));
#210=DIRECTION('ref_axis',(0.,-1.,0.));
#211=DIRECTION('',(1.,9.97953280561937E-16,0.));
#212=DIRECTION('center_axis',(-1.,-9.97953280561937E-16,0.));
#213=DIRECTION('ref_axis',(0.,0.,1.));
#214=CARTESIAN_POINT('',(0.,0.,0.));
#215=CARTESIAN_POINT('Origin',(17.3412197515094,12.9175589258771,0.));
#216=CARTESIAN_POINT('',(17.3412197515094,25.9175589258771,-1.59204083889156E-15));
#217=CARTESIAN_POINT('',(17.3412197515094,12.9175589258771,-13.));
#218=CARTESIAN_POINT('Origin',(17.3412197515094,12.9175589258771,0.));
#219=CARTESIAN_POINT('',(17.8412197515094,12.9175589258771,-12.5));
#220=CARTESIAN_POINT('Origin',(17.3412197515094,12.9175589258771,-12.5));
#221=CARTESIAN_POINT('Origin',(17.8412197515094,12.9175589258771,0.));
#222=CARTESIAN_POINT('Origin',(17.3412197515094,12.9175589258771,0.));
#223=CARTESIAN_POINT('Origin',(17.8412197515094,6.4175589258771,0.));
#224=CARTESIAN_POINT('Origin',(16.3412197515094,12.9175589258771,0.));
#225=CARTESIAN_POINT('',(14.8412197515094,25.9175589258771,-1.59204083889156E-15));
#226=CARTESIAN_POINT('Origin',(14.8412197515094,12.9175589258771,0.));
#227=CARTESIAN_POINT('',(16.3412197515094,25.9175589258771,-1.59204083889156E-15));
#228=CARTESIAN_POINT('Origin',(10.5282172832312,12.9175589258771,0.));
#229=CARTESIAN_POINT('',(10.0412197515094,14.5385589258771,-1.98515246141786E-16));
#230=CARTESIAN_POINT('Origin',(10.0412197515094,12.9175589258771,0.));
#231=CARTESIAN_POINT('',(11.0152148149531,12.9175589258771,0.));
#232=CARTESIAN_POINT('',(10.5282172832312,13.7280589258771,-9.9257623070893E-17));
#233=CARTESIAN_POINT('Origin',(0.230719751509385,12.9175589258771,0.));
#234=CARTESIAN_POINT('',(0.0412197515093825,14.9175589258771,-2.44929359829471E-16));
#235=CARTESIAN_POINT('Origin',(0.041219751509385,12.9175589258771,0.));
#236=CARTESIAN_POINT('',(0.420219751509384,14.5385589258771,-1.98515246141786E-16));
#237=CARTESIAN_POINT('',(0.230719751509383,14.7280589258771,-2.21722302985628E-16));
#238=CARTESIAN_POINT('Origin',(0.420219751509385,12.9175589258771,0.));
#239=CARTESIAN_POINT('Origin',(5.04121975150938,12.9175589258771,0.));
#240=CARTESIAN_POINT('',(5.04121975150938,14.5385589258771,-1.98515246141786E-16));
#241=CARTESIAN_POINT('Origin',(14.8412197515094,3.41755892587709,0.));
#242=CARTESIAN_POINT('',(14.8412197515094,18.9175589258771,-7.34788079488413E-16));
#243=CARTESIAN_POINT('Origin',(14.8412197515094,12.9175589258771,0.));
#244=CARTESIAN_POINT('Origin',(7.44121975150939,12.9175589258771,0.));
#245=CARTESIAN_POINT('',(0.0412197515093748,18.9175589258771,-7.34788079488413E-16));
#246=CARTESIAN_POINT('Origin',(0.0412197515093804,12.9175589258771,0.));
#247=CARTESIAN_POINT('',(7.44121975150939,18.9175589258771,-7.34788079488413E-16));
#248=CARTESIAN_POINT('Origin',(0.041219751509388,9.91755892587708,0.));
#249=UNCERTAINTY_MEASURE_WITH_UNIT(LENGTH_MEASURE(0.01),#253,
'DISTANCE_ACCURACY_VALUE',
'Maximum model space distance between geometric entities at asserted c
onnectivities');
#250=UNCERTAINTY_MEASURE_WITH_UNIT(LENGTH_MEASURE(0.01),#253,
'DISTANCE_ACCURACY_VALUE',
'Maximum model space distance between geometric entities at asserted c
onnectivities');
#251=(
GEOMETRIC_REPRESENTATION_CONTEXT(3)
GLOBAL_UNCERTAINTY_ASSIGNED_CONTEXT((#249))
GLOBAL_UNIT_ASSIGNED_CONTEXT((#253,#255,#256))
REPRESENTATION_CONTEXT('','3D')
);
#252=(
GEOMETRIC_REPRESENTATION_CONTEXT(3)
GLOBAL_UNCERTAINTY_ASSIGNED_CONTEXT((#250))
GLOBAL_UNIT_ASSIGNED_CONTEXT((#253,#255,#256))
REPRESENTATION_CONTEXT('','3D')
);
#253=(
LENGTH_UNIT()
NAMED_UNIT(*)
SI_UNIT(.MILLI.,.METRE.)
);
#254=(
LENGTH_UNIT()
NAMED_UNIT(*)
SI_UNIT(.CENTI.,.METRE.)
);
#255=(
NAMED_UNIT(*)
PLANE_ANGLE_UNIT()
SI_UNIT($,.RADIAN.)
);
#256=(
NAMED_UNIT(*)
SI_UNIT($,.STERADIAN.)
SOLID_ANGLE_UNIT()
);
#257=SHAPE_DEFINITION_REPRESENTATION(#258,#259);
#258=PRODUCT_DEFINITION_SHAPE('',$,#261);
#259=SHAPE_REPRESENTATION('',(#149),#251);
#260=DESIGN_CONTEXT('part definition',#265,'design');
#261=PRODUCT_DEFINITION('0168_00','0168_026_00',#262,#260);
#262=PRODUCT_DEFINITION_FORMATION('',$,#267);
#263=PRODUCT_RELATED_PRODUCT_CATEGORY('0168_026_00','0168_026_00',(#267));
#264=APPLICATION_PROTOCOL_DEFINITION('international standard',
'ap203_configuration_controlled_3d_design_of_mechanical_parts_and_asse
mblies_mim_lf',2004,#265);
#265=APPLICATION_CONTEXT(
'Configuration Controlled 3D Design of Mechanical Parts and Assemblies');
#266=MECHANICAL_CONTEXT('part definition',#265,'mechanical');
#267=PRODUCT('0168_00','0168_026_00',$,(#266));
#268=PRESENTATION_STYLE_ASSIGNMENT((#269));
#269=SURFACE_STYLE_USAGE(.BOTH.,#272);
#270=SURFACE_STYLE_RENDERING_WITH_PROPERTIES($,#276,(#271));
#271=SURFACE_STYLE_TRANSPARENT(0.);
#272=SURFACE_SIDE_STYLE('',(#273,#270));
#273=SURFACE_STYLE_FILL_AREA(#274);
#274=FILL_AREA_STYLE('',(#275));
#275=FILL_AREA_STYLE_COLOUR('',#276);
#276=COLOUR_RGB('',0.752941176470588,0.752941176470588,0.752941176470588);
ENDSEC;
END-ISO-10303-21;
