ISO-10303-21;
HEADER;
/* Generated by software containing ST-Developer
 * from STEP Tools, Inc. (www.steptools.com) 
 */

FILE_DESCRIPTION(
/* description */ (''),
/* implementation_level */ '2;1');

FILE_NAME(
/* name */ 'M:\\Modelat 3D dels productes\\0168_COMO\\0168_040_04.stp',

/* time_stamp */ '2023-01-02T11:05:32+01:00',
/* author */ ('jferrer'),
/* organization */ (''),
/* preprocessor_version */ 'ST-DEVELOPER v18.1',
/* originating_system */ 'Autodesk Inventor 2022',
/* authorisation */ '');

FILE_SCHEMA (('CONFIG_CONTROL_DESIGN'));
ENDSEC;

DATA;
#10=MECHANICAL_DESIGN_GEOMETRIC_PRESENTATION_REPRESENTATION('',(#13),#288);
#11=SHAPE_REPRESENTATION_RELATIONSHIP('SRR','None',#295,#12);
#12=ADVANCED_BREP_SHAPE_REPRESENTATION('',(#14),#287);
#13=STYLED_ITEM('',(#304),#14);
#14=MANIFOLD_SOLID_BREP('Solid1',#148);
#15=FACE_BOUND('',#43,.T.);
#16=FACE_BOUND('',#46,.T.);
#17=PLANE('',#182);
#18=PLANE('',#186);
#19=PLANE('',#190);
#20=TOROIDAL_SURFACE('',#174,20.,0.5);
#21=TOROIDAL_SURFACE('',#183,20.,0.5);
#22=CYLINDRICAL_SURFACE('',#173,1.621);
#23=CYLINDRICAL_SURFACE('',#179,20.5);
#24=CYLINDRICAL_SURFACE('',#188,6.);
#25=FACE_OUTER_BOUND('',#35,.T.);
#26=FACE_OUTER_BOUND('',#36,.T.);
#27=FACE_OUTER_BOUND('',#37,.T.);
#28=FACE_OUTER_BOUND('',#38,.T.);
#29=FACE_OUTER_BOUND('',#39,.T.);
#30=FACE_OUTER_BOUND('',#40,.T.);
#31=FACE_OUTER_BOUND('',#41,.T.);
#32=FACE_OUTER_BOUND('',#42,.T.);
#33=FACE_OUTER_BOUND('',#44,.T.);
#34=FACE_OUTER_BOUND('',#45,.T.);
#35=EDGE_LOOP('',(#100,#101,#102));
#36=EDGE_LOOP('',(#103,#104,#105,#106));
#37=EDGE_LOOP('',(#107,#108,#109,#110));
#38=EDGE_LOOP('',(#111,#112,#113,#114,#115));
#39=EDGE_LOOP('',(#116,#117,#118,#119,#120,#121));
#40=EDGE_LOOP('',(#122));
#41=EDGE_LOOP('',(#123,#124,#125,#126,#127));
#42=EDGE_LOOP('',(#128));
#43=EDGE_LOOP('',(#129));
#44=EDGE_LOOP('',(#130,#131,#132,#133));
#45=EDGE_LOOP('',(#134));
#46=EDGE_LOOP('',(#135));
#47=LINE('',#249,#52);
#48=LINE('',#254,#53);
#49=LINE('',#257,#54);
#50=LINE('',#268,#55);
#51=LINE('',#283,#56);
#52=VECTOR('',#197,0.8105);
#53=VECTOR('',#202,1.8105);
#54=VECTOR('',#207,1.621);
#55=VECTOR('',#220,20.5);
#56=VECTOR('',#241,6.);
#57=CIRCLE('',#169,1.621);
#58=CIRCLE('',#171,2.);
#59=CIRCLE('',#172,1.621);
#60=CIRCLE('',#175,20.);
#61=CIRCLE('',#176,0.5);
#62=CIRCLE('',#177,20.5);
#63=CIRCLE('',#178,20.5);
#64=CIRCLE('',#180,20.5);
#65=CIRCLE('',#181,20.5);
#66=CIRCLE('',#184,20.);
#67=CIRCLE('',#185,0.5);
#68=CIRCLE('',#187,6.);
#69=CIRCLE('',#189,6.);
#70=VERTEX_POINT('',#246);
#71=VERTEX_POINT('',#248);
#72=VERTEX_POINT('',#251);
#73=VERTEX_POINT('',#253);
#74=VERTEX_POINT('',#259);
#75=VERTEX_POINT('',#261);
#76=VERTEX_POINT('',#263);
#77=VERTEX_POINT('',#267);
#78=VERTEX_POINT('',#269);
#79=VERTEX_POINT('',#274);
#80=VERTEX_POINT('',#278);
#81=VERTEX_POINT('',#281);
#82=EDGE_CURVE('',#70,#70,#57,.T.);
#83=EDGE_CURVE('',#70,#71,#47,.T.);
#84=EDGE_CURVE('',#72,#72,#58,.T.);
#85=EDGE_CURVE('',#72,#73,#48,.T.);
#86=EDGE_CURVE('',#73,#73,#59,.T.);
#87=EDGE_CURVE('',#73,#70,#49,.T.);
#88=EDGE_CURVE('',#74,#74,#60,.T.);
#89=EDGE_CURVE('',#74,#75,#61,.T.);
#90=EDGE_CURVE('',#75,#76,#62,.T.);
#91=EDGE_CURVE('',#76,#75,#63,.T.);
#92=EDGE_CURVE('',#76,#77,#50,.T.);
#93=EDGE_CURVE('',#78,#77,#64,.T.);
#94=EDGE_CURVE('',#77,#78,#65,.T.);
#95=EDGE_CURVE('',#79,#79,#66,.T.);
#96=EDGE_CURVE('',#79,#78,#67,.T.);
#97=EDGE_CURVE('',#80,#80,#68,.T.);
#98=EDGE_CURVE('',#81,#81,#69,.T.);
#99=EDGE_CURVE('',#81,#80,#51,.T.);
#100=ORIENTED_EDGE('',*,*,#82,.T.);
#101=ORIENTED_EDGE('',*,*,#83,.T.);
#102=ORIENTED_EDGE('',*,*,#83,.F.);
#103=ORIENTED_EDGE('',*,*,#84,.F.);
#104=ORIENTED_EDGE('',*,*,#85,.T.);
#105=ORIENTED_EDGE('',*,*,#86,.F.);
#106=ORIENTED_EDGE('',*,*,#85,.F.);
#107=ORIENTED_EDGE('',*,*,#86,.T.);
#108=ORIENTED_EDGE('',*,*,#87,.T.);
#109=ORIENTED_EDGE('',*,*,#82,.F.);
#110=ORIENTED_EDGE('',*,*,#87,.F.);
#111=ORIENTED_EDGE('',*,*,#88,.T.);
#112=ORIENTED_EDGE('',*,*,#89,.T.);
#113=ORIENTED_EDGE('',*,*,#90,.T.);
#114=ORIENTED_EDGE('',*,*,#91,.T.);
#115=ORIENTED_EDGE('',*,*,#89,.F.);
#116=ORIENTED_EDGE('',*,*,#91,.F.);
#117=ORIENTED_EDGE('',*,*,#92,.T.);
#118=ORIENTED_EDGE('',*,*,#93,.F.);
#119=ORIENTED_EDGE('',*,*,#94,.F.);
#120=ORIENTED_EDGE('',*,*,#92,.F.);
#121=ORIENTED_EDGE('',*,*,#90,.F.);
#122=ORIENTED_EDGE('',*,*,#88,.F.);
#123=ORIENTED_EDGE('',*,*,#95,.T.);
#124=ORIENTED_EDGE('',*,*,#96,.T.);
#125=ORIENTED_EDGE('',*,*,#93,.T.);
#126=ORIENTED_EDGE('',*,*,#94,.T.);
#127=ORIENTED_EDGE('',*,*,#96,.F.);
#128=ORIENTED_EDGE('',*,*,#95,.F.);
#129=ORIENTED_EDGE('',*,*,#97,.T.);
#130=ORIENTED_EDGE('',*,*,#98,.F.);
#131=ORIENTED_EDGE('',*,*,#99,.T.);
#132=ORIENTED_EDGE('',*,*,#97,.F.);
#133=ORIENTED_EDGE('',*,*,#99,.F.);
#134=ORIENTED_EDGE('',*,*,#98,.T.);
#135=ORIENTED_EDGE('',*,*,#84,.T.);
#136=CONICAL_SURFACE('',#168,0.8105,1.02974425867665);
#137=CONICAL_SURFACE('',#170,1.8105,0.785398163397448);
#138=ADVANCED_FACE('',(#25),#136,.F.);
#139=ADVANCED_FACE('',(#26),#137,.F.);
#140=ADVANCED_FACE('',(#27),#22,.F.);
#141=ADVANCED_FACE('',(#28),#20,.T.);
#142=ADVANCED_FACE('',(#29),#23,.T.);
#143=ADVANCED_FACE('',(#30),#17,.T.);
#144=ADVANCED_FACE('',(#31),#21,.T.);
#145=ADVANCED_FACE('',(#32,#15),#18,.F.);
#146=ADVANCED_FACE('',(#33),#24,.T.);
#147=ADVANCED_FACE('',(#34,#16),#19,.F.);
#148=CLOSED_SHELL('',(#138,#139,#140,#141,#142,#143,#144,#145,#146,#147));
#149=DERIVED_UNIT_ELEMENT(#151,1.);
#150=DERIVED_UNIT_ELEMENT(#290,-3.);
#151=(
MASS_UNIT()
NAMED_UNIT(*)
SI_UNIT($,.GRAM.)
);
#152=DERIVED_UNIT((#149,#150));
#153=MEASURE_REPRESENTATION_ITEM('density measure',
POSITIVE_RATIO_MEASURE(1.),#152);
#154=PROPERTY_DEFINITION_REPRESENTATION(#159,#156);
#155=PROPERTY_DEFINITION_REPRESENTATION(#160,#157);
#156=REPRESENTATION('material name',(#158),#287);
#157=REPRESENTATION('density',(#153),#287);
#158=DESCRIPTIVE_REPRESENTATION_ITEM('Gen\X\E9rico','Gen\X\E9rico');
#159=PROPERTY_DEFINITION('material property','material name',#297);
#160=PROPERTY_DEFINITION('material property','density of part',#297);
#161=DATE_TIME_ROLE('creation_date');
#162=CC_DESIGN_DATE_AND_TIME_ASSIGNMENT(#163,#161,(#297));
#163=DATE_AND_TIME(#164,#165);
#164=CALENDAR_DATE(2018,20,12);
#165=LOCAL_TIME(0,0,0.,#166);
#166=COORDINATED_UNIVERSAL_TIME_OFFSET(0,0,.BEHIND.);
#167=AXIS2_PLACEMENT_3D('placement',#244,#191,#192);
#168=AXIS2_PLACEMENT_3D('',#245,#193,#194);
#169=AXIS2_PLACEMENT_3D('',#247,#195,#196);
#170=AXIS2_PLACEMENT_3D('',#250,#198,#199);
#171=AXIS2_PLACEMENT_3D('',#252,#200,#201);
#172=AXIS2_PLACEMENT_3D('',#255,#203,#204);
#173=AXIS2_PLACEMENT_3D('',#256,#205,#206);
#174=AXIS2_PLACEMENT_3D('',#258,#208,#209);
#175=AXIS2_PLACEMENT_3D('',#260,#210,#211);
#176=AXIS2_PLACEMENT_3D('',#262,#212,#213);
#177=AXIS2_PLACEMENT_3D('',#264,#214,#215);
#178=AXIS2_PLACEMENT_3D('',#265,#216,#217);
#179=AXIS2_PLACEMENT_3D('',#266,#218,#219);
#180=AXIS2_PLACEMENT_3D('',#270,#221,#222);
#181=AXIS2_PLACEMENT_3D('',#271,#223,#224);
#182=AXIS2_PLACEMENT_3D('',#272,#225,#226);
#183=AXIS2_PLACEMENT_3D('',#273,#227,#228);
#184=AXIS2_PLACEMENT_3D('',#275,#229,#230);
#185=AXIS2_PLACEMENT_3D('',#276,#231,#232);
#186=AXIS2_PLACEMENT_3D('',#277,#233,#234);
#187=AXIS2_PLACEMENT_3D('',#279,#235,#236);
#188=AXIS2_PLACEMENT_3D('',#280,#237,#238);
#189=AXIS2_PLACEMENT_3D('',#282,#239,#240);
#190=AXIS2_PLACEMENT_3D('',#284,#242,#243);
#191=DIRECTION('axis',(0.,0.,1.));
#192=DIRECTION('refdir',(1.,0.,0.));
#193=DIRECTION('center_axis',(0.,-1.,0.));
#194=DIRECTION('ref_axis',(1.,0.,0.));
#195=DIRECTION('center_axis',(0.,-1.,0.));
#196=DIRECTION('ref_axis',(1.,0.,0.));
#197=DIRECTION('',(0.857167300702112,0.515038074910054,1.04972719113862E-16));
#198=DIRECTION('center_axis',(0.,-1.,0.));
#199=DIRECTION('ref_axis',(1.,0.,0.));
#200=DIRECTION('center_axis',(0.,1.,0.));
#201=DIRECTION('ref_axis',(1.,0.,0.));
#202=DIRECTION('',(0.707106781186547,0.707106781186547,8.65956056235493E-17));
#203=DIRECTION('center_axis',(0.,-1.,0.));
#204=DIRECTION('ref_axis',(1.,0.,0.));
#205=DIRECTION('center_axis',(0.,-1.,0.));
#206=DIRECTION('ref_axis',(1.,0.,0.));
#207=DIRECTION('',(0.,1.,0.));
#208=DIRECTION('center_axis',(0.,1.,0.));
#209=DIRECTION('ref_axis',(0.,0.,1.));
#210=DIRECTION('center_axis',(0.,-1.,0.));
#211=DIRECTION('ref_axis',(1.,0.,0.));
#212=DIRECTION('center_axis',(-1.,0.,1.22464679914735E-16));
#213=DIRECTION('ref_axis',(-1.22464679914735E-16,0.,-1.));
#214=DIRECTION('center_axis',(0.,1.,0.));
#215=DIRECTION('ref_axis',(1.,0.,0.));
#216=DIRECTION('center_axis',(0.,1.,0.));
#217=DIRECTION('ref_axis',(1.,0.,0.));
#218=DIRECTION('center_axis',(0.,1.,0.));
#219=DIRECTION('ref_axis',(1.,0.,0.));
#220=DIRECTION('',(0.,-1.,0.));
#221=DIRECTION('center_axis',(0.,-1.,0.));
#222=DIRECTION('ref_axis',(1.,0.,0.));
#223=DIRECTION('center_axis',(0.,-1.,0.));
#224=DIRECTION('ref_axis',(1.,0.,0.));
#225=DIRECTION('center_axis',(0.,1.,0.));
#226=DIRECTION('ref_axis',(0.,0.,1.));
#227=DIRECTION('center_axis',(0.,-1.,0.));
#228=DIRECTION('ref_axis',(0.,0.,-1.));
#229=DIRECTION('center_axis',(0.,1.,0.));
#230=DIRECTION('ref_axis',(1.,0.,0.));
#231=DIRECTION('center_axis',(-1.,0.,-1.22464679914735E-16));
#232=DIRECTION('ref_axis',(-1.22464679914735E-16,0.,1.));
#233=DIRECTION('center_axis',(0.,1.,0.));
#234=DIRECTION('ref_axis',(0.,0.,1.));
#235=DIRECTION('center_axis',(0.,1.,0.));
#236=DIRECTION('ref_axis',(-1.,0.,0.));
#237=DIRECTION('center_axis',(0.,-1.,0.));
#238=DIRECTION('ref_axis',(-1.,0.,0.));
#239=DIRECTION('center_axis',(0.,-1.,0.));
#240=DIRECTION('ref_axis',(-1.,0.,0.));
#241=DIRECTION('',(0.,1.,0.));
#242=DIRECTION('center_axis',(0.,1.,0.));
#243=DIRECTION('ref_axis',(0.,0.,1.));
#244=CARTESIAN_POINT('',(0.,0.,0.));
#245=CARTESIAN_POINT('Origin',(0.,-9.51300246827816,0.));
#246=CARTESIAN_POINT('',(-1.621,-10.,-1.98515246141786E-16));
#247=CARTESIAN_POINT('Origin',(0.,-10.,0.));
#248=CARTESIAN_POINT('',(0.,-9.02600493655632,0.));
#249=CARTESIAN_POINT('',(-0.8105,-9.51300246827816,-9.9257623070893E-17));
#250=CARTESIAN_POINT('Origin',(0.,-19.8105,0.));
#251=CARTESIAN_POINT('',(-2.,-20.,-2.44929359829471E-16));
#252=CARTESIAN_POINT('Origin',(0.,-20.,0.));
#253=CARTESIAN_POINT('',(-1.621,-19.621,-1.98515246141786E-16));
#254=CARTESIAN_POINT('',(-1.8105,-19.8105,-2.21722302985628E-16));
#255=CARTESIAN_POINT('Origin',(0.,-19.621,0.));
#256=CARTESIAN_POINT('Origin',(0.,-15.,0.));
#257=CARTESIAN_POINT('',(-1.621,-15.,-1.98515246141786E-16));
#258=CARTESIAN_POINT('Origin',(0.,4.5,0.));
#259=CARTESIAN_POINT('',(-2.44929359829471E-15,5.,-20.));
#260=CARTESIAN_POINT('Origin',(0.,5.,0.));
#261=CARTESIAN_POINT('',(-2.51052593825207E-15,4.5,-20.5));
#262=CARTESIAN_POINT('Origin',(-2.44929359829471E-15,4.5,-20.));
#263=CARTESIAN_POINT('',(-20.5,4.5,2.51052593825207E-15));
#264=CARTESIAN_POINT('Origin',(0.,4.5,0.));
#265=CARTESIAN_POINT('Origin',(0.,4.5,0.));
#266=CARTESIAN_POINT('Origin',(0.,0.,0.));
#267=CARTESIAN_POINT('',(-20.5,0.5,-2.51052593825207E-15));
#268=CARTESIAN_POINT('',(-20.5,0.,2.51052593825207E-15));
#269=CARTESIAN_POINT('',(-2.51052593825207E-15,0.5,20.5));
#270=CARTESIAN_POINT('Origin',(0.,0.5,0.));
#271=CARTESIAN_POINT('Origin',(0.,0.5,0.));
#272=CARTESIAN_POINT('Origin',(9.31306771033303E-16,5.,3.61048138089482E-16));
#273=CARTESIAN_POINT('Origin',(0.,0.5,0.));
#274=CARTESIAN_POINT('',(-2.44929359829471E-15,0.,20.));
#275=CARTESIAN_POINT('Origin',(0.,0.,0.));
#276=CARTESIAN_POINT('Origin',(-2.44929359829471E-15,0.5,20.));
#277=CARTESIAN_POINT('Origin',(9.31306771033303E-16,0.,3.61048138089482E-16));
#278=CARTESIAN_POINT('',(6.,0.,7.34788079488412E-16));
#279=CARTESIAN_POINT('Origin',(0.,0.,0.));
#280=CARTESIAN_POINT('Origin',(0.,0.,0.));
#281=CARTESIAN_POINT('',(6.,-20.,7.34788079488412E-16));
#282=CARTESIAN_POINT('Origin',(0.,-20.,0.));
#283=CARTESIAN_POINT('',(6.,0.,7.34788079488412E-16));
#284=CARTESIAN_POINT('Origin',(-3.69627624575467E-16,-20.,-1.54197642309049E-16));
#285=UNCERTAINTY_MEASURE_WITH_UNIT(LENGTH_MEASURE(0.01),#289,
'DISTANCE_ACCURACY_VALUE',
'Maximum model space distance between geometric entities at asserted c
onnectivities');
#286=UNCERTAINTY_MEASURE_WITH_UNIT(LENGTH_MEASURE(0.01),#289,
'DISTANCE_ACCURACY_VALUE',
'Maximum model space distance between geometric entities at asserted c
onnectivities');
#287=(
GEOMETRIC_REPRESENTATION_CONTEXT(3)
GLOBAL_UNCERTAINTY_ASSIGNED_CONTEXT((#285))
GLOBAL_UNIT_ASSIGNED_CONTEXT((#289,#291,#292))
REPRESENTATION_CONTEXT('','3D')
);
#288=(
GEOMETRIC_REPRESENTATION_CONTEXT(3)
GLOBAL_UNCERTAINTY_ASSIGNED_CONTEXT((#286))
GLOBAL_UNIT_ASSIGNED_CONTEXT((#289,#291,#292))
REPRESENTATION_CONTEXT('','3D')
);
#289=(
LENGTH_UNIT()
NAMED_UNIT(*)
SI_UNIT(.MILLI.,.METRE.)
);
#290=(
LENGTH_UNIT()
NAMED_UNIT(*)
SI_UNIT(.CENTI.,.METRE.)
);
#291=(
NAMED_UNIT(*)
PLANE_ANGLE_UNIT()
SI_UNIT($,.RADIAN.)
);
#292=(
NAMED_UNIT(*)
SI_UNIT($,.STERADIAN.)
SOLID_ANGLE_UNIT()
);
#293=SHAPE_DEFINITION_REPRESENTATION(#294,#295);
#294=PRODUCT_DEFINITION_SHAPE('',$,#297);
#295=SHAPE_REPRESENTATION('',(#167),#287);
#296=DESIGN_CONTEXT('part definition',#301,'design');
#297=PRODUCT_DEFINITION('0168_040_04','0168_040_04',#298,#296);
#298=PRODUCT_DEFINITION_FORMATION('',$,#303);
#299=PRODUCT_RELATED_PRODUCT_CATEGORY('0168_040_04','0168_040_04',(#303));
#300=APPLICATION_PROTOCOL_DEFINITION('international standard',
'ap203_configuration_controlled_3d_design_of_mechanical_parts_and_asse
mblies_mim_lf',2004,#301);
#301=APPLICATION_CONTEXT(
'Configuration Controlled 3D Design of Mechanical Parts and Assemblies');
#302=MECHANICAL_CONTEXT('part definition',#301,'mechanical');
#303=PRODUCT('0168_040_04','0168_040_04',$,(#302));
#304=PRESENTATION_STYLE_ASSIGNMENT((#305));
#305=SURFACE_STYLE_USAGE(.BOTH.,#308);
#306=SURFACE_STYLE_RENDERING_WITH_PROPERTIES($,#312,(#307));
#307=SURFACE_STYLE_TRANSPARENT(0.);
#308=SURFACE_SIDE_STYLE('',(#309,#306));
#309=SURFACE_STYLE_FILL_AREA(#310);
#310=FILL_AREA_STYLE('',(#311));
#311=FILL_AREA_STYLE_COLOUR('',#312);
#312=COLOUR_RGB('',0.749019607843137,0.749019607843137,0.749019607843137);
ENDSEC;
END-ISO-10303-21;
