ISO-10303-21;
HEADER;
/* Generated by software containing ST-Developer
 * from STEP Tools, Inc. (www.steptools.com) 
 */

FILE_DESCRIPTION(
/* description */ (''),
/* implementation_level */ '2;1');

FILE_NAME(
/* name */ 'M:\\Modelat 3D dels productes\\0499_ROUND\\0499_01.stp',
/* time_stamp */ '2023-01-02T15:34:59+01:00',
/* author */ ('jferrer'),
/* organization */ (''),
/* preprocessor_version */ 'ST-DEVELOPER v18.1',
/* originating_system */ 'Autodesk Inventor 2022',
/* authorisation */ '');

FILE_SCHEMA (('CONFIG_CONTROL_DESIGN'));
ENDSEC;

DATA;
#10=MECHANICAL_DESIGN_GEOMETRIC_PRESENTATION_REPRESENTATION('',(#13),#349);
#11=SHAPE_REPRESENTATION_RELATIONSHIP('SRR','None',#356,#12);
#12=ADVANCED_BREP_SHAPE_REPRESENTATION('',(#14),#348);
#13=STYLED_ITEM('',(#365),#14);
#14=MANIFOLD_SOLID_BREP('Solid1',#181);
#15=FACE_BOUND('',#48,.T.);
#16=FACE_BOUND('',#53,.T.);
#17=FACE_BOUND('',#57,.T.);
#18=PLANE('',#213);
#19=PLANE('',#215);
#20=PLANE('',#223);
#21=PLANE('',#229);
#22=TOROIDAL_SURFACE('',#207,10.5,0.5);
#23=TOROIDAL_SURFACE('',#216,12.,0.5);
#24=TOROIDAL_SURFACE('',#225,12.,0.5);
#25=CYLINDRICAL_SURFACE('',#206,1.621);
#26=CYLINDRICAL_SURFACE('',#211,10.);
#27=CYLINDRICAL_SURFACE('',#220,12.5);
#28=CYLINDRICAL_SURFACE('',#227,10.);
#29=FACE_OUTER_BOUND('',#42,.T.);
#30=FACE_OUTER_BOUND('',#43,.T.);
#31=FACE_OUTER_BOUND('',#44,.T.);
#32=FACE_OUTER_BOUND('',#45,.T.);
#33=FACE_OUTER_BOUND('',#46,.T.);
#34=FACE_OUTER_BOUND('',#47,.T.);
#35=FACE_OUTER_BOUND('',#49,.T.);
#36=FACE_OUTER_BOUND('',#50,.T.);
#37=FACE_OUTER_BOUND('',#51,.T.);
#38=FACE_OUTER_BOUND('',#52,.T.);
#39=FACE_OUTER_BOUND('',#54,.T.);
#40=FACE_OUTER_BOUND('',#55,.T.);
#41=FACE_OUTER_BOUND('',#56,.T.);
#42=EDGE_LOOP('',(#122,#123,#124));
#43=EDGE_LOOP('',(#125,#126,#127,#128));
#44=EDGE_LOOP('',(#129,#130,#131,#132));
#45=EDGE_LOOP('',(#133,#134,#135,#136));
#46=EDGE_LOOP('',(#137,#138,#139,#140));
#47=EDGE_LOOP('',(#141));
#48=EDGE_LOOP('',(#142));
#49=EDGE_LOOP('',(#143));
#50=EDGE_LOOP('',(#144,#145,#146,#147));
#51=EDGE_LOOP('',(#148,#149,#150,#151,#152));
#52=EDGE_LOOP('',(#153));
#53=EDGE_LOOP('',(#154));
#54=EDGE_LOOP('',(#155,#156,#157,#158,#159));
#55=EDGE_LOOP('',(#160,#161,#162,#163));
#56=EDGE_LOOP('',(#164));
#57=EDGE_LOOP('',(#165));
#58=LINE('',#301,#64);
#59=LINE('',#306,#65);
#60=LINE('',#309,#66);
#61=LINE('',#318,#67);
#62=LINE('',#334,#68);
#63=LINE('',#343,#69);
#64=VECTOR('',#236,0.8105);
#65=VECTOR('',#241,2.0605);
#66=VECTOR('',#246,1.621);
#67=VECTOR('',#257,10.);
#68=VECTOR('',#278,12.5);
#69=VECTOR('',#291,10.);
#70=CIRCLE('',#202,1.621);
#71=CIRCLE('',#204,2.5);
#72=CIRCLE('',#205,1.621);
#73=CIRCLE('',#208,10.5);
#74=CIRCLE('',#209,0.5);
#75=CIRCLE('',#210,10.);
#76=CIRCLE('',#212,10.);
#77=CIRCLE('',#214,12.);
#78=CIRCLE('',#217,12.);
#79=CIRCLE('',#218,0.5);
#80=CIRCLE('',#219,12.5);
#81=CIRCLE('',#221,12.5);
#82=CIRCLE('',#222,12.5);
#83=CIRCLE('',#224,10.);
#84=CIRCLE('',#226,0.5);
#85=CIRCLE('',#228,10.);
#86=VERTEX_POINT('',#298);
#87=VERTEX_POINT('',#300);
#88=VERTEX_POINT('',#303);
#89=VERTEX_POINT('',#305);
#90=VERTEX_POINT('',#311);
#91=VERTEX_POINT('',#313);
#92=VERTEX_POINT('',#317);
#93=VERTEX_POINT('',#321);
#94=VERTEX_POINT('',#325);
#95=VERTEX_POINT('',#327);
#96=VERTEX_POINT('',#331);
#97=VERTEX_POINT('',#332);
#98=VERTEX_POINT('',#337);
#99=VERTEX_POINT('',#342);
#100=EDGE_CURVE('',#86,#86,#70,.T.);
#101=EDGE_CURVE('',#86,#87,#58,.T.);
#102=EDGE_CURVE('',#88,#88,#71,.T.);
#103=EDGE_CURVE('',#88,#89,#59,.T.);
#104=EDGE_CURVE('',#89,#89,#72,.T.);
#105=EDGE_CURVE('',#89,#86,#60,.T.);
#106=EDGE_CURVE('',#90,#90,#73,.T.);
#107=EDGE_CURVE('',#90,#91,#74,.T.);
#108=EDGE_CURVE('',#91,#91,#75,.T.);
#109=EDGE_CURVE('',#91,#92,#61,.T.);
#110=EDGE_CURVE('',#92,#92,#76,.T.);
#111=EDGE_CURVE('',#93,#93,#77,.T.);
#112=EDGE_CURVE('',#94,#94,#78,.T.);
#113=EDGE_CURVE('',#94,#95,#79,.T.);
#114=EDGE_CURVE('',#95,#95,#80,.T.);
#115=EDGE_CURVE('',#96,#97,#81,.T.);
#116=EDGE_CURVE('',#96,#95,#62,.T.);
#117=EDGE_CURVE('',#97,#96,#82,.T.);
#118=EDGE_CURVE('',#98,#98,#83,.T.);
#119=EDGE_CURVE('',#93,#97,#84,.T.);
#120=EDGE_CURVE('',#98,#99,#63,.T.);
#121=EDGE_CURVE('',#99,#99,#85,.T.);
#122=ORIENTED_EDGE('',*,*,#100,.T.);
#123=ORIENTED_EDGE('',*,*,#101,.T.);
#124=ORIENTED_EDGE('',*,*,#101,.F.);
#125=ORIENTED_EDGE('',*,*,#102,.F.);
#126=ORIENTED_EDGE('',*,*,#103,.T.);
#127=ORIENTED_EDGE('',*,*,#104,.F.);
#128=ORIENTED_EDGE('',*,*,#103,.F.);
#129=ORIENTED_EDGE('',*,*,#104,.T.);
#130=ORIENTED_EDGE('',*,*,#105,.T.);
#131=ORIENTED_EDGE('',*,*,#100,.F.);
#132=ORIENTED_EDGE('',*,*,#105,.F.);
#133=ORIENTED_EDGE('',*,*,#106,.T.);
#134=ORIENTED_EDGE('',*,*,#107,.T.);
#135=ORIENTED_EDGE('',*,*,#108,.T.);
#136=ORIENTED_EDGE('',*,*,#107,.F.);
#137=ORIENTED_EDGE('',*,*,#108,.F.);
#138=ORIENTED_EDGE('',*,*,#109,.T.);
#139=ORIENTED_EDGE('',*,*,#110,.T.);
#140=ORIENTED_EDGE('',*,*,#109,.F.);
#141=ORIENTED_EDGE('',*,*,#111,.F.);
#142=ORIENTED_EDGE('',*,*,#106,.F.);
#143=ORIENTED_EDGE('',*,*,#110,.F.);
#144=ORIENTED_EDGE('',*,*,#112,.T.);
#145=ORIENTED_EDGE('',*,*,#113,.T.);
#146=ORIENTED_EDGE('',*,*,#114,.T.);
#147=ORIENTED_EDGE('',*,*,#113,.F.);
#148=ORIENTED_EDGE('',*,*,#115,.F.);
#149=ORIENTED_EDGE('',*,*,#116,.T.);
#150=ORIENTED_EDGE('',*,*,#114,.F.);
#151=ORIENTED_EDGE('',*,*,#116,.F.);
#152=ORIENTED_EDGE('',*,*,#117,.F.);
#153=ORIENTED_EDGE('',*,*,#112,.F.);
#154=ORIENTED_EDGE('',*,*,#118,.T.);
#155=ORIENTED_EDGE('',*,*,#111,.T.);
#156=ORIENTED_EDGE('',*,*,#119,.T.);
#157=ORIENTED_EDGE('',*,*,#117,.T.);
#158=ORIENTED_EDGE('',*,*,#115,.T.);
#159=ORIENTED_EDGE('',*,*,#119,.F.);
#160=ORIENTED_EDGE('',*,*,#118,.F.);
#161=ORIENTED_EDGE('',*,*,#120,.T.);
#162=ORIENTED_EDGE('',*,*,#121,.F.);
#163=ORIENTED_EDGE('',*,*,#120,.F.);
#164=ORIENTED_EDGE('',*,*,#121,.T.);
#165=ORIENTED_EDGE('',*,*,#102,.T.);
#166=CONICAL_SURFACE('',#201,0.8105,1.02974425867665);
#167=CONICAL_SURFACE('',#203,2.0605,0.785398163397448);
#168=ADVANCED_FACE('',(#29),#166,.F.);
#169=ADVANCED_FACE('',(#30),#167,.F.);
#170=ADVANCED_FACE('',(#31),#25,.F.);
#171=ADVANCED_FACE('',(#32),#22,.T.);
#172=ADVANCED_FACE('',(#33),#26,.F.);
#173=ADVANCED_FACE('',(#34,#15),#18,.T.);
#174=ADVANCED_FACE('',(#35),#19,.T.);
#175=ADVANCED_FACE('',(#36),#23,.T.);
#176=ADVANCED_FACE('',(#37),#27,.T.);
#177=ADVANCED_FACE('',(#38,#16),#20,.F.);
#178=ADVANCED_FACE('',(#39),#24,.T.);
#179=ADVANCED_FACE('',(#40),#28,.T.);
#180=ADVANCED_FACE('',(#41,#17),#21,.F.);
#181=CLOSED_SHELL('',(#168,#169,#170,#171,#172,#173,#174,#175,#176,#177,
#178,#179,#180));
#182=DERIVED_UNIT_ELEMENT(#184,1.);
#183=DERIVED_UNIT_ELEMENT(#351,-3.);
#184=(
MASS_UNIT()
NAMED_UNIT(*)
SI_UNIT($,.GRAM.)
);
#185=DERIVED_UNIT((#182,#183));
#186=MEASURE_REPRESENTATION_ITEM('density measure',
POSITIVE_RATIO_MEASURE(1.),#185);
#187=PROPERTY_DEFINITION_REPRESENTATION(#192,#189);
#188=PROPERTY_DEFINITION_REPRESENTATION(#193,#190);
#189=REPRESENTATION('material name',(#191),#348);
#190=REPRESENTATION('density',(#186),#348);
#191=DESCRIPTIVE_REPRESENTATION_ITEM('Gen\X\E9rico','Gen\X\E9rico');
#192=PROPERTY_DEFINITION('material property','material name',#358);
#193=PROPERTY_DEFINITION('material property','density of part',#358);
#194=DATE_TIME_ROLE('creation_date');
#195=CC_DESIGN_DATE_AND_TIME_ASSIGNMENT(#196,#194,(#358));
#196=DATE_AND_TIME(#197,#198);
#197=CALENDAR_DATE(2020,7,5);
#198=LOCAL_TIME(0,0,0.,#199);
#199=COORDINATED_UNIVERSAL_TIME_OFFSET(0,0,.BEHIND.);
#200=AXIS2_PLACEMENT_3D('placement',#296,#230,#231);
#201=AXIS2_PLACEMENT_3D('',#297,#232,#233);
#202=AXIS2_PLACEMENT_3D('',#299,#234,#235);
#203=AXIS2_PLACEMENT_3D('',#302,#237,#238);
#204=AXIS2_PLACEMENT_3D('',#304,#239,#240);
#205=AXIS2_PLACEMENT_3D('',#307,#242,#243);
#206=AXIS2_PLACEMENT_3D('',#308,#244,#245);
#207=AXIS2_PLACEMENT_3D('',#310,#247,#248);
#208=AXIS2_PLACEMENT_3D('',#312,#249,#250);
#209=AXIS2_PLACEMENT_3D('',#314,#251,#252);
#210=AXIS2_PLACEMENT_3D('',#315,#253,#254);
#211=AXIS2_PLACEMENT_3D('',#316,#255,#256);
#212=AXIS2_PLACEMENT_3D('',#319,#258,#259);
#213=AXIS2_PLACEMENT_3D('',#320,#260,#261);
#214=AXIS2_PLACEMENT_3D('',#322,#262,#263);
#215=AXIS2_PLACEMENT_3D('',#323,#264,#265);
#216=AXIS2_PLACEMENT_3D('',#324,#266,#267);
#217=AXIS2_PLACEMENT_3D('',#326,#268,#269);
#218=AXIS2_PLACEMENT_3D('',#328,#270,#271);
#219=AXIS2_PLACEMENT_3D('',#329,#272,#273);
#220=AXIS2_PLACEMENT_3D('',#330,#274,#275);
#221=AXIS2_PLACEMENT_3D('',#333,#276,#277);
#222=AXIS2_PLACEMENT_3D('',#335,#279,#280);
#223=AXIS2_PLACEMENT_3D('',#336,#281,#282);
#224=AXIS2_PLACEMENT_3D('',#338,#283,#284);
#225=AXIS2_PLACEMENT_3D('',#339,#285,#286);
#226=AXIS2_PLACEMENT_3D('',#340,#287,#288);
#227=AXIS2_PLACEMENT_3D('',#341,#289,#290);
#228=AXIS2_PLACEMENT_3D('',#344,#292,#293);
#229=AXIS2_PLACEMENT_3D('',#345,#294,#295);
#230=DIRECTION('axis',(0.,0.,1.));
#231=DIRECTION('refdir',(1.,0.,0.));
#232=DIRECTION('center_axis',(0.,0.,-1.));
#233=DIRECTION('ref_axis',(-1.,0.,0.));
#234=DIRECTION('center_axis',(0.,0.,-1.));
#235=DIRECTION('ref_axis',(-1.,0.,0.));
#236=DIRECTION('',(-0.857167300702112,1.04972719113862E-16,0.515038074910054));
#237=DIRECTION('center_axis',(0.,0.,-1.));
#238=DIRECTION('ref_axis',(-1.,0.,0.));
#239=DIRECTION('center_axis',(0.,0.,1.));
#240=DIRECTION('ref_axis',(-1.,0.,0.));
#241=DIRECTION('',(-0.707106781186548,8.65956056235493E-17,0.707106781186548));
#242=DIRECTION('center_axis',(0.,0.,-1.));
#243=DIRECTION('ref_axis',(-1.,0.,0.));
#244=DIRECTION('center_axis',(0.,0.,-1.));
#245=DIRECTION('ref_axis',(-1.,0.,0.));
#246=DIRECTION('',(0.,0.,1.));
#247=DIRECTION('center_axis',(0.,0.,-1.));
#248=DIRECTION('ref_axis',(-1.,0.,0.));
#249=DIRECTION('center_axis',(0.,0.,1.));
#250=DIRECTION('ref_axis',(-1.,0.,0.));
#251=DIRECTION('center_axis',(-1.22464679914735E-16,-1.,0.));
#252=DIRECTION('ref_axis',(1.,-1.22464679914735E-16,0.));
#253=DIRECTION('center_axis',(0.,0.,-1.));
#254=DIRECTION('ref_axis',(-1.,0.,0.));
#255=DIRECTION('center_axis',(0.,0.,-1.));
#256=DIRECTION('ref_axis',(-1.,0.,0.));
#257=DIRECTION('',(0.,0.,-1.));
#258=DIRECTION('center_axis',(0.,0.,-1.));
#259=DIRECTION('ref_axis',(-1.,0.,0.));
#260=DIRECTION('center_axis',(0.,0.,1.));
#261=DIRECTION('ref_axis',(1.,0.,0.));
#262=DIRECTION('center_axis',(0.,0.,-1.));
#263=DIRECTION('ref_axis',(-1.,0.,0.));
#264=DIRECTION('center_axis',(0.,0.,1.));
#265=DIRECTION('ref_axis',(1.,0.,0.));
#266=DIRECTION('center_axis',(0.,0.,-1.));
#267=DIRECTION('ref_axis',(-1.,0.,0.));
#268=DIRECTION('center_axis',(0.,0.,1.));
#269=DIRECTION('ref_axis',(-1.,0.,0.));
#270=DIRECTION('center_axis',(-1.22464679914735E-16,-1.,0.));
#271=DIRECTION('ref_axis',(1.,-1.22464679914735E-16,0.));
#272=DIRECTION('center_axis',(0.,0.,-1.));
#273=DIRECTION('ref_axis',(-1.,0.,0.));
#274=DIRECTION('center_axis',(0.,0.,1.));
#275=DIRECTION('ref_axis',(-1.,0.,0.));
#276=DIRECTION('center_axis',(0.,0.,1.));
#277=DIRECTION('ref_axis',(-1.,0.,0.));
#278=DIRECTION('',(0.,0.,-1.));
#279=DIRECTION('center_axis',(0.,0.,1.));
#280=DIRECTION('ref_axis',(-1.,0.,0.));
#281=DIRECTION('center_axis',(0.,0.,1.));
#282=DIRECTION('ref_axis',(1.,0.,0.));
#283=DIRECTION('center_axis',(0.,0.,1.));
#284=DIRECTION('ref_axis',(-1.,0.,0.));
#285=DIRECTION('center_axis',(0.,0.,1.));
#286=DIRECTION('ref_axis',(1.,0.,0.));
#287=DIRECTION('center_axis',(1.22464679914735E-16,-1.,0.));
#288=DIRECTION('ref_axis',(-1.,-1.22464679914735E-16,0.));
#289=DIRECTION('center_axis',(0.,0.,1.));
#290=DIRECTION('ref_axis',(-1.,0.,0.));
#291=DIRECTION('',(0.,0.,-1.));
#292=DIRECTION('center_axis',(0.,0.,-1.));
#293=DIRECTION('ref_axis',(-1.,0.,0.));
#294=DIRECTION('center_axis',(0.,0.,1.));
#295=DIRECTION('ref_axis',(1.,0.,0.));
#296=CARTESIAN_POINT('',(0.,0.,0.));
#297=CARTESIAN_POINT('Origin',(0.,0.,10.4869975317218));
#298=CARTESIAN_POINT('',(1.621,-1.98515246141786E-16,10.));
#299=CARTESIAN_POINT('Origin',(0.,0.,10.));
#300=CARTESIAN_POINT('',(0.,0.,10.9739950634437));
#301=CARTESIAN_POINT('',(0.8105,-9.9257623070893E-17,10.4869975317218));
#302=CARTESIAN_POINT('Origin',(0.,0.,0.4395));
#303=CARTESIAN_POINT('',(2.5,-3.06161699786838E-16,-2.08166817117217E-16));
#304=CARTESIAN_POINT('Origin',(0.,0.,0.));
#305=CARTESIAN_POINT('',(1.621,-1.98515246141786E-16,0.879));
#306=CARTESIAN_POINT('',(2.0605,-2.52338472964312E-16,0.4395));
#307=CARTESIAN_POINT('Origin',(0.,0.,0.878999999999999));
#308=CARTESIAN_POINT('Origin',(0.,0.,5.));
#309=CARTESIAN_POINT('',(1.621,-1.98515246141786E-16,5.));
#310=CARTESIAN_POINT('Origin',(0.,0.,27.5));
#311=CARTESIAN_POINT('',(10.5,1.28587913910472E-15,28.));
#312=CARTESIAN_POINT('Origin',(0.,0.,28.));
#313=CARTESIAN_POINT('',(10.,-1.22464679914735E-15,27.5));
#314=CARTESIAN_POINT('Origin',(10.5,-1.28587913910472E-15,27.5));
#315=CARTESIAN_POINT('Origin',(0.,0.,27.5));
#316=CARTESIAN_POINT('Origin',(0.,0.,28.));
#317=CARTESIAN_POINT('',(10.,1.22464679914735E-15,27.));
#318=CARTESIAN_POINT('',(10.,-1.22464679914735E-15,28.));
#319=CARTESIAN_POINT('Origin',(0.,0.,27.));
#320=CARTESIAN_POINT('Origin',(-7.19686321377933E-16,-2.96059473233375E-16,
28.));
#321=CARTESIAN_POINT('',(-12.,-1.46957615897682E-15,28.));
#322=CARTESIAN_POINT('Origin',(0.,0.,28.));
#323=CARTESIAN_POINT('Origin',(-4.72128241470665E-16,1.85037170770859E-16,
27.));
#324=CARTESIAN_POINT('Origin',(0.,0.,25.5));
#325=CARTESIAN_POINT('',(12.,1.46957615897682E-15,25.));
#326=CARTESIAN_POINT('Origin',(0.,0.,25.));
#327=CARTESIAN_POINT('',(12.5,-1.53080849893419E-15,25.5));
#328=CARTESIAN_POINT('Origin',(12.,-1.46957615897682E-15,25.5));
#329=CARTESIAN_POINT('Origin',(0.,0.,25.5));
#330=CARTESIAN_POINT('Origin',(0.,0.,25.));
#331=CARTESIAN_POINT('',(12.5,1.53080849893419E-15,27.5));
#332=CARTESIAN_POINT('',(-12.5,-1.53080849893419E-15,27.5));
#333=CARTESIAN_POINT('Origin',(0.,0.,27.5));
#334=CARTESIAN_POINT('',(12.5,1.53080849893419E-15,25.));
#335=CARTESIAN_POINT('Origin',(0.,0.,27.5));
#336=CARTESIAN_POINT('Origin',(-7.19686321377933E-16,-2.96059473233375E-16,
25.));
#337=CARTESIAN_POINT('',(10.,1.22464679914735E-15,25.));
#338=CARTESIAN_POINT('Origin',(0.,0.,25.));
#339=CARTESIAN_POINT('Origin',(0.,0.,27.5));
#340=CARTESIAN_POINT('Origin',(-12.,-1.46957615897682E-15,27.5));
#341=CARTESIAN_POINT('Origin',(0.,0.,0.));
#342=CARTESIAN_POINT('',(10.,1.22464679914735E-15,0.));
#343=CARTESIAN_POINT('',(10.,1.22464679914735E-15,0.));
#344=CARTESIAN_POINT('Origin',(0.,0.,0.));
#345=CARTESIAN_POINT('Origin',(-4.72128241470665E-16,1.85037170770859E-16,
0.));
#346=UNCERTAINTY_MEASURE_WITH_UNIT(LENGTH_MEASURE(0.01),#350,
'DISTANCE_ACCURACY_VALUE',
'Maximum model space distance between geometric entities at asserted c
onnectivities');
#347=UNCERTAINTY_MEASURE_WITH_UNIT(LENGTH_MEASURE(0.01),#350,
'DISTANCE_ACCURACY_VALUE',
'Maximum model space distance between geometric entities at asserted c
onnectivities');
#348=(
GEOMETRIC_REPRESENTATION_CONTEXT(3)
GLOBAL_UNCERTAINTY_ASSIGNED_CONTEXT((#346))
GLOBAL_UNIT_ASSIGNED_CONTEXT((#350,#352,#353))
REPRESENTATION_CONTEXT('','3D')
);
#349=(
GEOMETRIC_REPRESENTATION_CONTEXT(3)
GLOBAL_UNCERTAINTY_ASSIGNED_CONTEXT((#347))
GLOBAL_UNIT_ASSIGNED_CONTEXT((#350,#352,#353))
REPRESENTATION_CONTEXT('','3D')
);
#350=(
LENGTH_UNIT()
NAMED_UNIT(*)
SI_UNIT(.MILLI.,.METRE.)
);
#351=(
LENGTH_UNIT()
NAMED_UNIT(*)
SI_UNIT(.CENTI.,.METRE.)
);
#352=(
NAMED_UNIT(*)
PLANE_ANGLE_UNIT()
SI_UNIT($,.RADIAN.)
);
#353=(
NAMED_UNIT(*)
SI_UNIT($,.STERADIAN.)
SOLID_ANGLE_UNIT()
);
#354=SHAPE_DEFINITION_REPRESENTATION(#355,#356);
#355=PRODUCT_DEFINITION_SHAPE('',$,#358);
#356=SHAPE_REPRESENTATION('',(#200),#348);
#357=DESIGN_CONTEXT('part definition',#362,'design');
#358=PRODUCT_DEFINITION('0499_00','0499_01',#359,#357);
#359=PRODUCT_DEFINITION_FORMATION('',$,#364);
#360=PRODUCT_RELATED_PRODUCT_CATEGORY('0499_01','0499_01',(#364));
#361=APPLICATION_PROTOCOL_DEFINITION('international standard',
'ap203_configuration_controlled_3d_design_of_mechanical_parts_and_asse
mblies_mim_lf',2004,#362);
#362=APPLICATION_CONTEXT(
'Configuration Controlled 3D Design of Mechanical Parts and Assemblies');
#363=MECHANICAL_CONTEXT('part definition',#362,'mechanical');
#364=PRODUCT('0499_00','0499_01',$,(#363));
#365=PRESENTATION_STYLE_ASSIGNMENT((#366));
#366=SURFACE_STYLE_USAGE(.BOTH.,#369);
#367=SURFACE_STYLE_RENDERING_WITH_PROPERTIES($,#373,(#368));
#368=SURFACE_STYLE_TRANSPARENT(0.);
#369=SURFACE_SIDE_STYLE('',(#370,#367));
#370=SURFACE_STYLE_FILL_AREA(#371);
#371=FILL_AREA_STYLE('',(#372));
#372=FILL_AREA_STYLE_COLOUR('',#373);
#373=COLOUR_RGB('',0.501960784313725,0.501960784313725,0.501960784313725);
ENDSEC;
END-ISO-10303-21;
